  0
SECTION
  2
HEADER
  9
$ACADVER
  1
AC1009
  9
$INSBASE
 10
0.0
 20
0.0
 30
0.0
  9
$EXTMIN
 10
0.414755
 20
0.361849
 30
0.0
  9
$EXTMAX
 10
4.112616
 20
3.40932
 30
0.0
  9
$LIMMIN
 10
0.414755
 20
0.361849
  9
$LIMMAX
 10
4.112616
 20
3.40932
  9
$ORTHOMODE
 70
     0
  9
$REGENMODE
 70
     1
  9
$FILLMODE
 70
     1
  9
$QTEXTMODE
 70
     0
  9
$MIRRTEXT
 70
     1
  9
$DRAGMODE
 70
     2
  9
$LTSCALE
 40
0.03
  9
$OSMODE
 70
     0
  9
$ATTMODE
 70
     1
  9
$TEXTSIZE
 40
0.125
  9
$TRACEWID
 40
0.05
  9
$TEXTSTYLE
  7
STANDARD
  9
$CLAYER
  8
0
  9
$CELTYPE
  6
CONTINUOUS
  9
$CECOLOR
 62
     4
  9
$DIMSCALE
 40
1.0
  9
$DIMASZ
 40
0.12
  9
$DIMEXO
 40
0.065
  9
$DIMDLI
 40
0.38
  9
$DIMRND
 40
0.0
  9
$DIMDLE
 40
0.0
  9
$DIMEXE
 40
0.12
  9
$DIMTP
 40
0.0
  9
$DIMTM
 40
0.0
  9
$DIMTXT
 40
0.125
  9
$DIMCEN
 40
0.09
  9
$DIMTSZ
 40
0.0
  9
$DIMTOL
 70
     0
  9
$DIMLIM
 70
     0
  9
$DIMTIH
 70
     0
  9
$DIMTOH
 70
     1
  9
$DIMSE1
 70
     0
  9
$DIMSE2
 70
     0
  9
$DIMTAD
 70
     0
  9
$DIMZIN
 70
     0
  9
$DIMBLK
  1

  9
$DIMASO
 70
     1
  9
$DIMSHO
 70
     1
  9
$DIMPOST
  1

  9
$DIMAPOST
  1

  9
$DIMALT
 70
     0
  9
$DIMALTD
 70
     2
  9
$DIMALTF
 40
25.4
  9
$DIMLFAC
 40
1.0
  9
$DIMTOFL
 70
     0
  9
$DIMTVP
 40
0.0
  9
$DIMTIX
 70
     1
  9
$DIMSOXD
 70
     0
  9
$DIMSAH
 70
     0
  9
$DIMBLK1
  1

  9
$DIMBLK2
  1

  9
$DIMSTYLE
  2
*UNNAMED
  9
$DIMCLRD
 70
     0
  9
$DIMCLRE
 70
     0
  9
$DIMCLRT
 70
     0
  9
$DIMTFAC
 40
1.0
  9
$DIMGAP
 40
0.12
  9
$LUNITS
 70
     2
  9
$LUPREC
 70
     3
  9
$SKETCHINC
 40
0.1
  9
$FILLETRAD
 40
0.062
  9
$AUNITS
 70
     0
  9
$AUPREC
 70
     0
  9
$MENU
  1
acad
  9
$ELEVATION
 40
0.0
  9
$PELEVATION
 40
0.0
  9
$THICKNESS
 40
0.0
  9
$LIMCHECK
 70
     0
  9
$BLIPMODE
 70
     0
  9
$CHAMFERA
 40
0.0
  9
$CHAMFERB
 40
0.0
  9
$SKPOLY
 70
     0
  9
$TDCREATE
 40
0.0
  9
$TDUPDATE
 40
0.0
  9
$TDINDWG
 40
0.0
  9
$TDUSRTIMER
 40
0.0
  9
$USRTIMER
 70
     1
  9
$ANGBASE
 50
0.0
  9
$ANGDIR
 70
     0
  9
$PDMODE
 70
     0
  9
$PDSIZE
 40
0.0
  9
$PLINEWID
 40
0.0
  9
$COORDS
 70
     1
  9
$SPLFRAME
 70
     0
  9
$SPLINETYPE
 70
     6
  9
$SPLINESEGS
 70
     8
  9
$ATTDIA
 70
     0
  9
$ATTREQ
 70
     1
  9
$HANDLING
 70
     0
  9
$HANDSEED
  5
0
  9
$SURFTAB1
 70
     6
  9
$SURFTAB2
 70
     6
  9
$SURFTYPE
 70
     6
  9
$SURFU
 70
     6
  9
$SURFV
 70
     6
  9
$UCSNAME
  2

  9
$UCSORG
 10
0.0
 20
0.0
 30
0.0
  9
$UCSXDIR
 10
1.0
 20
0.0
 30
0.0
  9
$UCSYDIR
 10
0.0
 20
1.0
 30
0.0
  9
$PUCSNAME
  2

  9
$PUCSORG
 10
0.0
 20
0.0
 30
0.0
  9
$PUCSXDIR
 10
1.0
 20
0.0
 30
0.0
  9
$PUCSYDIR
 10
0.0
 20
1.0
 30
0.0
  9
$USERI1
 70
     0
  9
$USERI2
 70
     0
  9
$USERI3
 70
     0
  9
$USERI4
 70
     0
  9
$USERI5
 70
     0
  9
$USERR1
 40
0.0
  9
$USERR2
 40
0.0
  9
$USERR3
 40
0.0
  9
$USERR4
 40
0.0
  9
$USERR5
 40
0.0
  9
$WORLDVIEW
 70
     1
  9
$SHADEDGE
 70
     3
  9
$SHADEDIF
 70
    70
  9
$TILEMODE
 70
     1
  9
$MAXACTVP
 70
    16
  9
$PINSBASE
 10
0.0
 20
0.0
 30
0.0
  9
$PLIMCHECK
 70
     0
  9
$PEXTMIN
 10
1.000000E+20
 20
1.000000E+20
 30
1.000000E+20
  9
$PEXTMAX
 10
-1.000000E+20
 20
-1.000000E+20
 30
-1.000000E+20
  9
$PLIMMIN
 10
0.0
 20
0.0
  9
$PLIMMAX
 10
12.0
 20
9.0
  9
$UNITMODE
 70
     0
  9
$VISRETAIN
 70
     0
  9
$PLINEGEN
 70
     0
  9
$PSLTSCALE
 70
     1
  9
$TREEDEPTH
 70
  3020
  9
$DWGCODEPAGE
  3
ascii
  0
ENDSEC
  0
SECTION
  2
TABLES
  0
TABLE
  2
VPORT
 70
     1
  0
VPORT
  2
*ACTIVE
 70
     0
 10
0.0
 20
0.0
 11
1.0
 21
1.0
 12
2.263685
 22
1.885585
 13
0.0
 23
0.0
 14
1.0
 24
1.0
 15
0.0
 25
0.0
 16
0.0
 26
0.0
 36
1.0
 17
0.0
 27
0.0
 37
0.0
 40
3.047471
 41
1.21342
 42
50.0
 43
0.0
 44
0.0
 50
0.0
 51
0.0
 71
     0
 72
   100
 73
     1
 74
     1
 75
     0
 76
     0
 77
     0
 78
     0
  0
ENDTAB
  0
TABLE
  2
LTYPE
 70
     3
  0
LTYPE
  2
CONTINUOUS
 70
     0
  3
Solid line
 72
    65
 73
     0
 40
0.0
  0
LTYPE
  2
GENLT_4
 70
    64
  3
____      ____      ____      
 72
    65
 73
     2
 40
1.0
 49
0.35
 49
-0.65
  0
LTYPE
  2
HIDDEN
 70
    64
  3
__ __ __ __ __ __ __ __ __ __ __ __ __ __ __
 72
    65
 73
     2
 40
0.375
 49
0.25
 49
-0.125
  0
ENDTAB
  0
TABLE
  2
LAYER
 70
     4
  0
LAYER
  2
0
 70
    64
 62
     4
  6
CONTINUOUS
  0
LAYER
  2
2
 70
    64
 62
     0
  6
CONTINUOUS
  0
LAYER
  2
1
 70
    64
 62
     0
  6
CONTINUOUS
  0
LAYER
  2
20
 70
    64
 62
     0
  6
CONTINUOUS
  0
ENDTAB
  0
TABLE
  2
STYLE
 70
     1
  0
STYLE
  2
STANDARD
 70
     0
 40
0.0
 41
1.0
 50
0.0
 71
     0
 42
0.2
  3
txt
  4

  0
ENDTAB
  0
TABLE
  2
VIEW
 70
     0
  0
ENDTAB
  0
TABLE
  2
UCS
 70
     0
  0
ENDTAB
  0
TABLE
  2
APPID
 70
     1
  0
APPID
  2
ACAD
 70
    64
  0
ENDTAB
  0
TABLE
  2
DIMSTYLE
 70
     0
  0
ENDTAB
  0
ENDSEC
  0
SECTION
  2
BLOCKS
  0
ENDSEC
  0
SECTION
  2
ENTITIES
  0
LINE
  8
0
  6
CONTINUOUS
 62
     0
 10
2.809718
 20
1.010162
 30
0.0
 11
3.643052
 21
1.010162
 31
0.0
  0
LINE
  8
0
  6
CONTINUOUS
 62
     0
 10
3.643052
 20
1.010162
 30
0.0
 11
3.643052
 21
2.376829
 31
0.0
  0
LINE
  8
0
  6
CONTINUOUS
 62
     0
 10
3.643052
 20
2.376829
 30
0.0
 11
2.809718
 21
2.376829
 31
0.0
  0
LINE
  8
0
  6
CONTINUOUS
 62
     0
 10
2.809718
 20
2.376829
 30
0.0
 11
2.809718
 21
1.010162
 31
0.0
  0
CIRCLE
  8
0
  6
CONTINUOUS
 62
     0
 10
2.882719
 20
2.251829
 30
0.0
 40
0.057333
  0
CIRCLE
  8
0
  6
CONTINUOUS
 62
     0
 10
3.570052
 20
2.251829
 30
0.0
 40
0.057333
  0
CIRCLE
  8
0
  6
CONTINUOUS
 62
     0
 10
2.882719
 20
1.135162
 30
0.0
 40
0.057334
  0
CIRCLE
  8
0
  6
CONTINUOUS
 62
     0
 10
3.570052
 20
1.135162
 30
0.0
 40
0.057333
  0
CIRCLE
  8
0
  6
CONTINUOUS
 62
     0
 10
3.226719
 20
1.151828
 30
0.0
 40
0.034333
  0
CIRCLE
  8
0
  6
CONTINUOUS
 62
     0
 10
3.226719
 20
2.235162
 30
0.0
 40
0.034333
  0
CIRCLE
  8
0
  6
CONTINUOUS
 62
     0
 10
3.226385
 20
1.693496
 30
0.0
 40
0.083333
  0
ARC
  8
0
  6
CONTINUOUS
 62
     0
 10
3.226389
 20
1.693496
 30
0.0
 40
0.437338
 50
162.315663
 51
197.684337
  0
ARC
  8
0
  6
CONTINUOUS
 62
     0
 10
3.226395
 20
1.693496
 30
0.0
 40
0.437324
 50
342.31506
 51
17.68494
  0
CIRCLE
  8
0
  6
CONTINUOUS
 62
     0
 10
3.570052
 20
1.135162
 30
0.0
 40
0.053667
  0
LINE
  8
0
  6
CONTINUOUS
 62
     0
 10
3.536052
 20
1.138162
 30
0.0
 11
3.536052
 21
1.132347
 31
0.0
  0
ARC
  8
0
  6
CONTINUOUS
 62
     0
 10
3.536052
 20
1.169162
 30
0.0
 40
0.031
 50
269.999778
 51
0.000222
  0
LINE
  8
0
  6
CONTINUOUS
 62
     0
 10
3.567052
 20
1.169162
 30
0.0
 11
3.572991
 21
1.169162
 31
0.0
  0
ARC
  8
0
  6
CONTINUOUS
 62
     0
 10
3.603992
 20
1.169163
 30
0.0
 40
0.031001
 50
180.001373
 51
269.998847
  0
LINE
  8
0
  6
CONTINUOUS
 62
     0
 10
3.603992
 20
1.138161
 30
0.0
 11
3.603992
 21
1.132162
 31
0.0
  0
ARC
  8
0
  6
CONTINUOUS
 62
     0
 10
3.603992
 20
1.101162
 30
0.0
 40
0.031
 50
90.00053
 51
180.000131
  0
ARC
  8
0
  6
CONTINUOUS
 62
     0
 10
3.536051
 20
1.10116
 30
0.0
 40
0.031187
 50
0.002808
 51
89.999163
  0
LINE
  8
0
  6
CONTINUOUS
 62
     0
 10
3.572991
 20
1.101162
 30
0.0
 11
3.567238
 21
1.101162
 31
0.0
  0
CIRCLE
  8
0
  6
CONTINUOUS
 62
     0
 10
2.882719
 20
1.135162
 30
0.0
 40
0.053667
  0
LINE
  8
0
  6
CONTINUOUS
 62
     0
 10
2.848718
 20
1.138162
 30
0.0
 11
2.848718
 21
1.132347
 31
0.0
  0
ARC
  8
0
  6
CONTINUOUS
 62
     0
 10
2.848718
 20
1.169162
 30
0.0
 40
0.031
 50
270.00053
 51
359.99947
  0
LINE
  8
0
  6
CONTINUOUS
 62
     0
 10
2.879719
 20
1.169162
 30
0.0
 11
2.885657
 21
1.169162
 31
0.0
  0
ARC
  8
0
  6
CONTINUOUS
 62
     0
 10
2.916659
 20
1.169163
 30
0.0
 40
0.031002
 50
180.002125
 51
269.998535
  0
LINE
  8
0
  6
CONTINUOUS
 62
     0
 10
2.916658
 20
1.138161
 30
0.0
 11
2.916658
 21
1.132162
 31
0.0
  0
ARC
  8
0
  6
CONTINUOUS
 62
     0
 10
2.916658
 20
1.101162
 30
0.0
 40
0.031
 50
90.00053
 51
180.000131
  0
ARC
  8
0
  6
CONTINUOUS
 62
     0
 10
2.848718
 20
1.101161
 30
0.0
 40
0.031187
 50
0.00206
 51
89.999473
  0
LINE
  8
0
  6
CONTINUOUS
 62
     0
 10
2.885658
 20
1.101162
 30
0.0
 11
2.879905
 21
1.101162
 31
0.0
  0
CIRCLE
  8
0
  6
CONTINUOUS
 62
     0
 10
2.882719
 20
2.251829
 30
0.0
 40
0.053666
  0
LINE
  8
0
  6
CONTINUOUS
 62
     0
 10
2.848718
 20
2.254828
 30
0.0
 11
2.848718
 21
2.249014
 31
0.0
  0
ARC
  8
0
  6
CONTINUOUS
 62
     0
 10
2.848718
 20
2.285829
 30
0.0
 40
0.031001
 50
270.001282
 51
359.999599
  0
LINE
  8
0
  6
CONTINUOUS
 62
     0
 10
2.879719
 20
2.285829
 30
0.0
 11
2.885657
 21
2.285829
 31
0.0
  0
ARC
  8
0
  6
CONTINUOUS
 62
     0
 10
2.916659
 20
2.285831
 30
0.0
 40
0.031002
 50
180.002657
 51
269.997783
  0
LINE
  8
0
  6
CONTINUOUS
 62
     0
 10
2.916658
 20
2.254828
 30
0.0
 11
2.916658
 21
2.248829
 31
0.0
  0
ARC
  8
0
  6
CONTINUOUS
 62
     0
 10
2.916659
 20
2.217828
 30
0.0
 40
0.031001
 50
90.001282
 51
180.00004
  0
ARC
  8
0
  6
CONTINUOUS
 62
     0
 10
2.848718
 20
2.217827
 30
0.0
 40
0.031187
 50
0.002525
 51
89.998351
  0
LINE
  8
0
  6
CONTINUOUS
 62
     0
 10
2.885658
 20
2.217828
 30
0.0
 11
2.879905
 21
2.217828
 31
0.0
  0
CIRCLE
  8
0
  6
CONTINUOUS
 62
     0
 10
3.570052
 20
2.251829
 30
0.0
 40
0.053666
  0
LINE
  8
0
  6
CONTINUOUS
 62
     0
 10
3.536052
 20
2.254828
 30
0.0
 11
3.536052
 21
2.249014
 31
0.0
  0
ARC
  8
0
  6
CONTINUOUS
 62
     0
 10
3.536051
 20
2.285829
 30
0.0
 40
0.031
 50
270.00053
 51
0.000352
  0
LINE
  8
0
  6
CONTINUOUS
 62
     0
 10
3.567052
 20
2.285829
 30
0.0
 11
3.572991
 21
2.285829
 31
0.0
  0
ARC
  8
0
  6
CONTINUOUS
 62
     0
 10
3.603993
 20
2.28583
 30
0.0
 40
0.031002
 50
180.001905
 51
269.998095
  0
LINE
  8
0
  6
CONTINUOUS
 62
     0
 10
3.603992
 20
2.254828
 30
0.0
 11
3.603992
 21
2.248829
 31
0.0
  0
ARC
  8
0
  6
CONTINUOUS
 62
     0
 10
3.603992
 20
2.217828
 30
0.0
 40
0.031001
 50
90.001282
 51
180.00004
  0
ARC
  8
0
  6
CONTINUOUS
 62
     0
 10
3.536051
 20
2.217826
 30
0.0
 40
0.031188
 50
0.003273
 51
89.998041
  0
LINE
  8
0
  6
CONTINUOUS
 62
     0
 10
3.572991
 20
2.217828
 30
0.0
 11
3.567238
 21
2.217828
 31
0.0
  0
LINE
  8
0
  6
CONTINUOUS
 62
     0
 10
1.83271
 20
1.010162
 30
0.0
 11
1.83271
 21
2.376829
 31
0.0
  0
LINE
  8
0
  6
CONTINUOUS
 62
     0
 10
1.749377
 20
1.010162
 30
0.0
 11
1.749377
 21
2.376829
 31
0.0
  0
LINE
  8
0
  6
CONTINUOUS
 62
     0
 10
1.83271
 20
2.376829
 30
0.0
 11
2.416044
 21
2.376829
 31
0.0
  0
LINE
  8
0
  6
CONTINUOUS
 62
     0
 10
1.831491
 20
2.126829
 30
0.0
 11
2.416044
 21
2.126829
 31
0.0
  0
LINE
  8
0
  6
CONTINUOUS
 62
     0
 10
1.83271
 20
2.376829
 30
0.0
 11
1.749377
 21
2.376829
 31
0.0
  0
LINE
  8
0
  6
CONTINUOUS
 62
     0
 10
2.416044
 20
1.010162
 30
0.0
 11
1.83271
 21
1.010162
 31
0.0
  0
LINE
  8
0
  6
CONTINUOUS
 62
     0
 10
1.832513
 20
1.260162
 30
0.0
 11
2.416044
 21
1.260162
 31
0.0
  0
LINE
  8
0
  6
CONTINUOUS
 62
     0
 10
1.83271
 20
1.010162
 30
0.0
 11
1.749377
 21
1.010162
 31
0.0
  0
LINE
  8
0
  6
CONTINUOUS
 62
     0
 10
2.494377
 20
2.376829
 30
0.0
 11
2.494377
 21
1.010162
 31
0.0
  0
LINE
  8
0
  6
CONTINUOUS
 62
     0
 10
2.416044
 20
2.376829
 30
0.0
 11
2.494377
 21
2.376829
 31
0.0
  0
LINE
  8
0
  6
CONTINUOUS
 62
     0
 10
2.416044
 20
2.126829
 30
0.0
 11
2.416044
 21
2.376829
 31
0.0
  0
LINE
  8
0
  6
CONTINUOUS
 62
     0
 10
2.494377
 20
1.010162
 30
0.0
 11
2.416044
 21
1.010162
 31
0.0
  0
LINE
  8
0
  6
CONTINUOUS
 62
     0
 10
2.416044
 20
1.010162
 30
0.0
 11
2.416044
 21
1.038327
 31
0.0
  0
LINE
  8
0
  6
CONTINUOUS
 62
     0
 10
2.416044
 20
1.260162
 30
0.0
 11
2.416044
 21
1.010162
 31
0.0
  0
LINE
  8
0
  6
CONTINUOUS
 62
     0
 10
2.374377
 20
2.126803
 30
0.0
 11
2.374377
 21
1.260162
 31
0.0
  0
LINE
  8
0
  6
CONTINUOUS
 62
     0
 10
2.274377
 20
1.443482
 30
0.0
 11
2.374377
 21
1.443482
 31
0.0
  0
LINE
  8
0
  6
CONTINUOUS
 62
     0
 10
2.274377
 20
1.943482
 30
0.0
 11
2.274377
 21
1.443482
 31
0.0
  0
LINE
  8
0
  6
CONTINUOUS
 62
     0
 10
2.374377
 20
1.943482
 30
0.0
 11
2.274377
 21
1.943482
 31
0.0
  0
LINE
  8
2
  6
CONTINUOUS
 62
     0
 10
2.296256
 20
1.463487
 30
0.0
 11
2.358589
 21
1.463487
 31
0.0
  0
LINE
  8
2
  6
CONTINUOUS
 62
     0
 10
2.358589
 20
1.463487
 30
0.0
 11
2.358589
 21
1.925487
 31
0.0
  0
LINE
  8
2
  6
CONTINUOUS
 62
     0
 10
2.358589
 20
1.925487
 30
0.0
 11
2.296256
 21
1.925487
 31
0.0
  0
LINE
  8
2
  6
CONTINUOUS
 62
     0
 10
2.296256
 20
1.925487
 30
0.0
 11
2.296256
 21
1.463487
 31
0.0
  0
LINE
  8
2
  6
CONTINUOUS
 62
     0
 10
2.296597
 20
1.920487
 30
0.0
 11
2.358589
 21
1.920487
 31
0.0
  0
LINE
  8
2
  6
CONTINUOUS
 62
     0
 10
2.296394
 20
1.915488
 30
0.0
 11
2.358589
 21
1.915488
 31
0.0
  0
LINE
  8
2
  6
CONTINUOUS
 62
     0
 10
2.296597
 20
1.920487
 30
0.0
 11
2.296264
 21
1.920487
 31
0.0
  0
LINE
  8
2
  6
CONTINUOUS
 62
     0
 10
2.296394
 20
1.915488
 30
0.0
 11
2.296267
 21
1.915488
 31
0.0
  0
LINE
  8
2
  6
CONTINUOUS
 62
     0
 10
2.296256
 20
1.910488
 30
0.0
 11
2.358589
 21
1.910488
 31
0.0
  0
LINE
  8
2
  6
CONTINUOUS
 62
     0
 10
2.296256
 20
1.905488
 30
0.0
 11
2.358589
 21
1.905488
 31
0.0
  0
LINE
  8
2
  6
CONTINUOUS
 62
     0
 10
2.296227
 20
1.900488
 30
0.0
 11
2.358399
 21
1.900488
 31
0.0
  0
LINE
  8
2
  6
CONTINUOUS
 62
     0
 10
2.296196
 20
1.895488
 30
0.0
 11
2.358275
 21
1.895488
 31
0.0
  0
LINE
  8
2
  6
CONTINUOUS
 62
     0
 10
2.296382
 20
1.890488
 30
0.0
 11
2.358275
 21
1.890488
 31
0.0
  0
LINE
  8
2
  6
CONTINUOUS
 62
     0
 10
2.296351
 20
1.880489
 30
0.0
 11
2.358589
 21
1.880489
 31
0.0
  0
LINE
  8
2
  6
CONTINUOUS
 62
     0
 10
2.296351
 20
1.870489
 30
0.0
 11
2.358589
 21
1.870489
 31
0.0
  0
LINE
  8
2
  6
CONTINUOUS
 62
     0
 10
2.296382
 20
1.865489
 30
0.0
 11
2.358589
 21
1.865489
 31
0.0
  0
LINE
  8
2
  6
CONTINUOUS
 62
     0
 10
2.296413
 20
1.86049
 30
0.0
 11
2.358589
 21
1.86049
 31
0.0
  0
LINE
  8
2
  6
CONTINUOUS
 62
     0
 10
2.296382
 20
1.85549
 30
0.0
 11
2.358589
 21
1.85549
 31
0.0
  0
LINE
  8
2
  6
CONTINUOUS
 62
     0
 10
2.296256
 20
1.885489
 30
0.0
 11
2.358589
 21
1.885489
 31
0.0
  0
LINE
  8
2
  6
CONTINUOUS
 62
     0
 10
2.296256
 20
1.875489
 30
0.0
 11
2.358589
 21
1.875489
 31
0.0
  0
LINE
  8
2
  6
CONTINUOUS
 62
     0
 10
2.358275
 20
1.895488
 30
0.0
 11
2.358593
 21
1.895488
 31
0.0
  0
LINE
  8
2
  6
CONTINUOUS
 62
     0
 10
2.358275
 20
1.890488
 30
0.0
 11
2.358645
 21
1.890488
 31
0.0
  0
LINE
  8
2
  6
CONTINUOUS
 62
     0
 10
2.358589
 20
1.849717
 30
0.0
 11
2.296256
 21
1.849717
 31
0.0
  0
LINE
  8
2
  6
CONTINUOUS
 62
     0
 10
2.296597
 20
1.844717
 30
0.0
 11
2.358589
 21
1.844717
 31
0.0
  0
LINE
  8
2
  6
CONTINUOUS
 62
     0
 10
2.296394
 20
1.839717
 30
0.0
 11
2.358589
 21
1.839717
 31
0.0
  0
LINE
  8
2
  6
CONTINUOUS
 62
     0
 10
2.296597
 20
1.844717
 30
0.0
 11
2.296264
 21
1.844717
 31
0.0
  0
LINE
  8
2
  6
CONTINUOUS
 62
     0
 10
2.296394
 20
1.839717
 30
0.0
 11
2.296267
 21
1.839717
 31
0.0
  0
LINE
  8
2
  6
CONTINUOUS
 62
     0
 10
2.296256
 20
1.834718
 30
0.0
 11
2.358589
 21
1.834718
 31
0.0
  0
LINE
  8
2
  6
CONTINUOUS
 62
     0
 10
2.296256
 20
1.829718
 30
0.0
 11
2.358589
 21
1.829718
 31
0.0
  0
LINE
  8
2
  6
CONTINUOUS
 62
     0
 10
2.296227
 20
1.824718
 30
0.0
 11
2.358399
 21
1.824718
 31
0.0
  0
LINE
  8
2
  6
CONTINUOUS
 62
     0
 10
2.296196
 20
1.819718
 30
0.0
 11
2.358275
 21
1.819718
 31
0.0
  0
LINE
  8
2
  6
CONTINUOUS
 62
     0
 10
2.296351
 20
1.804719
 30
0.0
 11
2.358589
 21
1.804719
 31
0.0
  0
LINE
  8
2
  6
CONTINUOUS
 62
     0
 10
2.296351
 20
1.794719
 30
0.0
 11
2.358589
 21
1.794719
 31
0.0
  0
LINE
  8
2
  6
CONTINUOUS
 62
     0
 10
2.296382
 20
1.789719
 30
0.0
 11
2.358589
 21
1.789719
 31
0.0
  0
LINE
  8
2
  6
CONTINUOUS
 62
     0
 10
2.296413
 20
1.78472
 30
0.0
 11
2.358589
 21
1.78472
 31
0.0
  0
LINE
  8
2
  6
CONTINUOUS
 62
     0
 10
2.296382
 20
1.77972
 30
0.0
 11
2.358589
 21
1.77972
 31
0.0
  0
LINE
  8
2
  6
CONTINUOUS
 62
     0
 10
2.296256
 20
1.809719
 30
0.0
 11
2.358589
 21
1.809719
 31
0.0
  0
LINE
  8
2
  6
CONTINUOUS
 62
     0
 10
2.296256
 20
1.799719
 30
0.0
 11
2.358589
 21
1.799719
 31
0.0
  0
LINE
  8
2
  6
CONTINUOUS
 62
     0
 10
2.358275
 20
1.819718
 30
0.0
 11
2.358593
 21
1.819718
 31
0.0
  0
LINE
  8
2
  6
CONTINUOUS
 62
     0
 10
2.358589
 20
1.774487
 30
0.0
 11
2.296256
 21
1.774487
 31
0.0
  0
LINE
  8
2
  6
CONTINUOUS
 62
     0
 10
2.296597
 20
1.769487
 30
0.0
 11
2.358589
 21
1.769487
 31
0.0
  0
LINE
  8
2
  6
CONTINUOUS
 62
     0
 10
2.296394
 20
1.764487
 30
0.0
 11
2.358589
 21
1.764487
 31
0.0
  0
LINE
  8
2
  6
CONTINUOUS
 62
     0
 10
2.296597
 20
1.769487
 30
0.0
 11
2.296264
 21
1.769487
 31
0.0
  0
LINE
  8
2
  6
CONTINUOUS
 62
     0
 10
2.296394
 20
1.764487
 30
0.0
 11
2.296267
 21
1.764487
 31
0.0
  0
LINE
  8
2
  6
CONTINUOUS
 62
     0
 10
2.296256
 20
1.759487
 30
0.0
 11
2.358589
 21
1.759487
 31
0.0
  0
LINE
  8
2
  6
CONTINUOUS
 62
     0
 10
2.296256
 20
1.754488
 30
0.0
 11
2.358589
 21
1.754488
 31
0.0
  0
LINE
  8
2
  6
CONTINUOUS
 62
     0
 10
2.296227
 20
1.749488
 30
0.0
 11
2.358399
 21
1.749488
 31
0.0
  0
LINE
  8
2
  6
CONTINUOUS
 62
     0
 10
2.296196
 20
1.744488
 30
0.0
 11
2.358275
 21
1.744488
 31
0.0
  0
LINE
  8
2
  6
CONTINUOUS
 62
     0
 10
2.296382
 20
1.739488
 30
0.0
 11
2.358275
 21
1.739488
 31
0.0
  0
LINE
  8
2
  6
CONTINUOUS
 62
     0
 10
2.296351
 20
1.729489
 30
0.0
 11
2.358589
 21
1.729489
 31
0.0
  0
LINE
  8
2
  6
CONTINUOUS
 62
     0
 10
2.296351
 20
1.719489
 30
0.0
 11
2.358589
 21
1.719489
 31
0.0
  0
LINE
  8
2
  6
CONTINUOUS
 62
     0
 10
2.296382
 20
1.714489
 30
0.0
 11
2.358589
 21
1.714489
 31
0.0
  0
LINE
  8
2
  6
CONTINUOUS
 62
     0
 10
2.296413
 20
1.709489
 30
0.0
 11
2.358589
 21
1.709489
 31
0.0
  0
LINE
  8
2
  6
CONTINUOUS
 62
     0
 10
2.296382
 20
1.704489
 30
0.0
 11
2.358589
 21
1.704489
 31
0.0
  0
LINE
  8
2
  6
CONTINUOUS
 62
     0
 10
2.296256
 20
1.734488
 30
0.0
 11
2.358589
 21
1.734488
 31
0.0
  0
LINE
  8
2
  6
CONTINUOUS
 62
     0
 10
2.296256
 20
1.724489
 30
0.0
 11
2.358589
 21
1.724489
 31
0.0
  0
LINE
  8
2
  6
CONTINUOUS
 62
     0
 10
2.358275
 20
1.744488
 30
0.0
 11
2.358593
 21
1.744488
 31
0.0
  0
LINE
  8
2
  6
CONTINUOUS
 62
     0
 10
2.358275
 20
1.739488
 30
0.0
 11
2.358645
 21
1.739488
 31
0.0
  0
LINE
  8
2
  6
CONTINUOUS
 62
     0
 10
2.358589
 20
1.698717
 30
0.0
 11
2.296256
 21
1.698717
 31
0.0
  0
LINE
  8
2
  6
CONTINUOUS
 62
     0
 10
2.296597
 20
1.693717
 30
0.0
 11
2.358589
 21
1.693717
 31
0.0
  0
LINE
  8
2
  6
CONTINUOUS
 62
     0
 10
2.296394
 20
1.688717
 30
0.0
 11
2.358589
 21
1.688717
 31
0.0
  0
LINE
  8
2
  6
CONTINUOUS
 62
     0
 10
2.296597
 20
1.693717
 30
0.0
 11
2.296264
 21
1.693717
 31
0.0
  0
LINE
  8
2
  6
CONTINUOUS
 62
     0
 10
2.296394
 20
1.688717
 30
0.0
 11
2.296267
 21
1.688717
 31
0.0
  0
LINE
  8
2
  6
CONTINUOUS
 62
     0
 10
2.296256
 20
1.683717
 30
0.0
 11
2.358589
 21
1.683717
 31
0.0
  0
LINE
  8
2
  6
CONTINUOUS
 62
     0
 10
2.296256
 20
1.678717
 30
0.0
 11
2.358589
 21
1.678717
 31
0.0
  0
LINE
  8
2
  6
CONTINUOUS
 62
     0
 10
2.296227
 20
1.673718
 30
0.0
 11
2.358399
 21
1.673718
 31
0.0
  0
LINE
  8
2
  6
CONTINUOUS
 62
     0
 10
2.296196
 20
1.668718
 30
0.0
 11
2.358275
 21
1.668718
 31
0.0
  0
LINE
  8
2
  6
CONTINUOUS
 62
     0
 10
2.296382
 20
1.663718
 30
0.0
 11
2.358275
 21
1.663718
 31
0.0
  0
LINE
  8
2
  6
CONTINUOUS
 62
     0
 10
2.296351
 20
1.653718
 30
0.0
 11
2.358589
 21
1.653718
 31
0.0
  0
LINE
  8
2
  6
CONTINUOUS
 62
     0
 10
2.296351
 20
1.643719
 30
0.0
 11
2.358589
 21
1.643719
 31
0.0
  0
LINE
  8
2
  6
CONTINUOUS
 62
     0
 10
2.296382
 20
1.638719
 30
0.0
 11
2.358589
 21
1.638719
 31
0.0
  0
LINE
  8
2
  6
CONTINUOUS
 62
     0
 10
2.296413
 20
1.633719
 30
0.0
 11
2.358589
 21
1.633719
 31
0.0
  0
LINE
  8
2
  6
CONTINUOUS
 62
     0
 10
2.296382
 20
1.628719
 30
0.0
 11
2.358589
 21
1.628719
 31
0.0
  0
LINE
  8
2
  6
CONTINUOUS
 62
     0
 10
2.296256
 20
1.658718
 30
0.0
 11
2.358589
 21
1.658718
 31
0.0
  0
LINE
  8
2
  6
CONTINUOUS
 62
     0
 10
2.296256
 20
1.648719
 30
0.0
 11
2.358589
 21
1.648719
 31
0.0
  0
LINE
  8
2
  6
CONTINUOUS
 62
     0
 10
2.358275
 20
1.668718
 30
0.0
 11
2.358593
 21
1.668718
 31
0.0
  0
LINE
  8
2
  6
CONTINUOUS
 62
     0
 10
2.358275
 20
1.663718
 30
0.0
 11
2.358645
 21
1.663718
 31
0.0
  0
LINE
  8
2
  6
CONTINUOUS
 62
     0
 10
2.296196
 20
1.623701
 30
0.0
 11
2.358275
 21
1.623701
 31
0.0
  0
LINE
  8
2
  6
CONTINUOUS
 62
     0
 10
2.296382
 20
1.618701
 30
0.0
 11
2.358275
 21
1.618701
 31
0.0
  0
LINE
  8
2
  6
CONTINUOUS
 62
     0
 10
2.296351
 20
1.608702
 30
0.0
 11
2.358589
 21
1.608702
 31
0.0
  0
LINE
  8
2
  6
CONTINUOUS
 62
     0
 10
2.296351
 20
1.598702
 30
0.0
 11
2.358589
 21
1.598702
 31
0.0
  0
LINE
  8
2
  6
CONTINUOUS
 62
     0
 10
2.296382
 20
1.593702
 30
0.0
 11
2.358589
 21
1.593702
 31
0.0
  0
LINE
  8
2
  6
CONTINUOUS
 62
     0
 10
2.296413
 20
1.588703
 30
0.0
 11
2.358589
 21
1.588703
 31
0.0
  0
LINE
  8
2
  6
CONTINUOUS
 62
     0
 10
2.296382
 20
1.583703
 30
0.0
 11
2.358589
 21
1.583703
 31
0.0
  0
LINE
  8
2
  6
CONTINUOUS
 62
     0
 10
2.296256
 20
1.613702
 30
0.0
 11
2.358589
 21
1.613702
 31
0.0
  0
LINE
  8
2
  6
CONTINUOUS
 62
     0
 10
2.296256
 20
1.603702
 30
0.0
 11
2.358589
 21
1.603702
 31
0.0
  0
LINE
  8
2
  6
CONTINUOUS
 62
     0
 10
2.358275
 20
1.623701
 30
0.0
 11
2.358593
 21
1.623701
 31
0.0
  0
LINE
  8
2
  6
CONTINUOUS
 62
     0
 10
2.358275
 20
1.618701
 30
0.0
 11
2.358645
 21
1.618701
 31
0.0
  0
LINE
  8
2
  6
CONTINUOUS
 62
     0
 10
2.358589
 20
1.57793
 30
0.0
 11
2.296256
 21
1.57793
 31
0.0
  0
LINE
  8
2
  6
CONTINUOUS
 62
     0
 10
2.296597
 20
1.57293
 30
0.0
 11
2.358589
 21
1.57293
 31
0.0
  0
LINE
  8
2
  6
CONTINUOUS
 62
     0
 10
2.296394
 20
1.56793
 30
0.0
 11
2.358589
 21
1.56793
 31
0.0
  0
LINE
  8
2
  6
CONTINUOUS
 62
     0
 10
2.296597
 20
1.57293
 30
0.0
 11
2.296264
 21
1.57293
 31
0.0
  0
LINE
  8
2
  6
CONTINUOUS
 62
     0
 10
2.296394
 20
1.56793
 30
0.0
 11
2.296267
 21
1.56793
 31
0.0
  0
LINE
  8
2
  6
CONTINUOUS
 62
     0
 10
2.296256
 20
1.562931
 30
0.0
 11
2.358589
 21
1.562931
 31
0.0
  0
LINE
  8
2
  6
CONTINUOUS
 62
     0
 10
2.296256
 20
1.557931
 30
0.0
 11
2.358589
 21
1.557931
 31
0.0
  0
LINE
  8
2
  6
CONTINUOUS
 62
     0
 10
2.296227
 20
1.552931
 30
0.0
 11
2.358399
 21
1.552931
 31
0.0
  0
LINE
  8
2
  6
CONTINUOUS
 62
     0
 10
2.296196
 20
1.547931
 30
0.0
 11
2.358275
 21
1.547931
 31
0.0
  0
LINE
  8
2
  6
CONTINUOUS
 62
     0
 10
2.296382
 20
1.542931
 30
0.0
 11
2.358275
 21
1.542931
 31
0.0
  0
LINE
  8
2
  6
CONTINUOUS
 62
     0
 10
2.296351
 20
1.532931
 30
0.0
 11
2.358589
 21
1.532931
 31
0.0
  0
LINE
  8
2
  6
CONTINUOUS
 62
     0
 10
2.296351
 20
1.522932
 30
0.0
 11
2.358589
 21
1.522932
 31
0.0
  0
LINE
  8
2
  6
CONTINUOUS
 62
     0
 10
2.296382
 20
1.517932
 30
0.0
 11
2.358589
 21
1.517932
 31
0.0
  0
LINE
  8
2
  6
CONTINUOUS
 62
     0
 10
2.296413
 20
1.512932
 30
0.0
 11
2.358589
 21
1.512932
 31
0.0
  0
LINE
  8
2
  6
CONTINUOUS
 62
     0
 10
2.296382
 20
1.507932
 30
0.0
 11
2.358589
 21
1.507932
 31
0.0
  0
LINE
  8
2
  6
CONTINUOUS
 62
     0
 10
2.296256
 20
1.537931
 30
0.0
 11
2.358589
 21
1.537931
 31
0.0
  0
LINE
  8
2
  6
CONTINUOUS
 62
     0
 10
2.296256
 20
1.527932
 30
0.0
 11
2.358589
 21
1.527932
 31
0.0
  0
LINE
  8
2
  6
CONTINUOUS
 62
     0
 10
2.358275
 20
1.547931
 30
0.0
 11
2.358593
 21
1.547931
 31
0.0
  0
LINE
  8
2
  6
CONTINUOUS
 62
     0
 10
2.358275
 20
1.542931
 30
0.0
 11
2.358645
 21
1.542931
 31
0.0
  0
LINE
  8
2
  6
CONTINUOUS
 62
     0
 10
2.296196
 20
1.502788
 30
0.0
 11
2.358275
 21
1.502788
 31
0.0
  0
LINE
  8
2
  6
CONTINUOUS
 62
     0
 10
2.296351
 20
1.487789
 30
0.0
 11
2.358589
 21
1.487789
 31
0.0
  0
LINE
  8
2
  6
CONTINUOUS
 62
     0
 10
2.296351
 20
1.477789
 30
0.0
 11
2.358589
 21
1.477789
 31
0.0
  0
LINE
  8
2
  6
CONTINUOUS
 62
     0
 10
2.296382
 20
1.472789
 30
0.0
 11
2.358589
 21
1.472789
 31
0.0
  0
LINE
  8
2
  6
CONTINUOUS
 62
     0
 10
2.296413
 20
1.467789
 30
0.0
 11
2.358589
 21
1.467789
 31
0.0
  0
LINE
  8
2
  6
CONTINUOUS
 62
     0
 10
2.296382
 20
1.46279
 30
0.0
 11
2.358589
 21
1.46279
 31
0.0
  0
LINE
  8
2
  6
CONTINUOUS
 62
     0
 10
2.296256
 20
1.492788
 30
0.0
 11
2.358589
 21
1.492788
 31
0.0
  0
LINE
  8
2
  6
CONTINUOUS
 62
     0
 10
2.296256
 20
1.482789
 30
0.0
 11
2.358589
 21
1.482789
 31
0.0
  0
LINE
  8
2
  6
CONTINUOUS
 62
     0
 10
2.358275
 20
1.502788
 30
0.0
 11
2.358593
 21
1.502788
 31
0.0
  0
LINE
  8
2
  6
CONTINUOUS
 62
     0
 10
2.358275
 20
1.497788
 30
0.0
 11
2.358645
 21
1.497788
 31
0.0
  0
LINE
  8
2
  6
CONTINUOUS
 62
     0
 10
2.296382
 20
1.497788
 30
0.0
 11
2.358589
 21
1.497788
 31
0.0
  0
LINE
  8
2
  6
CONTINUOUS
 62
     0
 10
2.296382
 20
1.814718
 30
0.0
 11
2.358589
 21
1.814718
 31
0.0
  0
LINE
  8
2
  6
CONTINUOUS
 62
     0
 10
2.358275
 20
1.814718
 30
0.0
 11
2.35859
 21
1.814718
 31
0.0
  0
LINE
  8
0
  6
CONTINUOUS
 62
     0
 10
1.475762
 20
1.010162
 30
0.0
 11
1.475762
 21
2.376829
 31
0.0
  0
LINE
  8
0
  6
CONTINUOUS
 62
     0
 10
1.475762
 20
2.376829
 30
0.0
 11
0.642429
 21
2.376829
 31
0.0
  0
LINE
  8
0
  6
CONTINUOUS
 62
     0
 10
0.642429
 20
2.376829
 30
0.0
 11
0.642429
 21
1.010162
 31
0.0
  0
LINE
  8
0
  6
CONTINUOUS
 62
     0
 10
0.642429
 20
1.010162
 30
0.0
 11
1.475762
 21
1.010162
 31
0.0
  0
CIRCLE
  8
0
  6
CONTINUOUS
 62
     0
 10
1.05984
 20
1.248121
 30
0.0
 40
0.057333
  0
CIRCLE
  8
0
  6
CONTINUOUS
 62
     0
 10
1.059095
 20
2.138496
 30
0.0
 40
0.057334
  0
ARC
  8
0
  6
CONTINUOUS
 62
     0
 10
1.059555
 20
1.693496
 30
0.0
 40
0.43734
 50
162.512065
 51
197.487935
  0
ARC
  8
0
  6
CONTINUOUS
 62
     0
 10
1.059545
 20
1.693496
 30
0.0
 40
0.437336
 50
342.121391
 51
17.878609
  0
CIRCLE
  8
0
  6
CONTINUOUS
 62
     0
 10
0.892429
 20
1.151829
 30
0.0
 40
0.033333
  0
CIRCLE
  8
0
  6
GENLT_4
 62
     0
 10
0.892429
 20
1.151829
 30
0.0
 40
0.041667
  0
CIRCLE
  8
0
  6
CONTINUOUS
 62
     0
 10
0.944762
 20
1.235162
 30
0.0
 40
0.025
  0
CIRCLE
  8
0
  6
GENLT_4
 62
     0
 10
0.944762
 20
1.235162
 30
0.0
 40
0.031667
  0
CIRCLE
  8
0
  6
CONTINUOUS
 62
     0
 10
1.225762
 20
1.151829
 30
0.0
 40
0.033334
  0
CIRCLE
  8
0
  6
GENLT_4
 62
     0
 10
1.225762
 20
1.151829
 30
0.0
 40
0.041667
  0
CIRCLE
  8
0
  6
CONTINUOUS
 62
     0
 10
1.173429
 20
1.235162
 30
0.0
 40
0.025
  0
CIRCLE
  8
0
  6
GENLT_4
 62
     0
 10
1.173429
 20
1.235162
 30
0.0
 40
0.031667
  0
CIRCLE
  8
0
  6
CONTINUOUS
 62
     0
 10
1.05984
 20
1.248121
 30
0.0
 40
0.053667
  0
LINE
  8
0
  6
CONTINUOUS
 62
     0
 10
1.05684
 20
1.214121
 30
0.0
 11
1.062654
 21
1.214121
 31
0.0
  0
ARC
  8
0
  6
CONTINUOUS
 62
     0
 10
1.025839
 20
1.21412
 30
0.0
 40
0.031001
 50
0.001943
 51
89.998718
  0
LINE
  8
0
  6
CONTINUOUS
 62
     0
 10
1.02584
 20
1.245121
 30
0.0
 11
1.02584
 21
1.25106
 31
0.0
  0
ARC
  8
0
  6
CONTINUOUS
 62
     0
 10
1.02584
 20
1.282061
 30
0.0
 40
0.031
 50
269.999869
 51
359.99947
  0
LINE
  8
0
  6
CONTINUOUS
 62
     0
 10
1.05684
 20
1.28206
 30
0.0
 11
1.06284
 21
1.28206
 31
0.0
  0
ARC
  8
0
  6
CONTINUOUS
 62
     0
 10
1.09384
 20
1.282061
 30
0.0
 40
0.031
 50
180.000815
 51
270.000507
  0
ARC
  8
0
  6
CONTINUOUS
 62
     0
 10
1.093841
 20
1.214121
 30
0.0
 40
0.031186
 50
90.000939
 51
179.999499
  0
LINE
  8
0
  6
CONTINUOUS
 62
     0
 10
1.09384
 20
1.251061
 30
0.0
 11
1.09384
 21
1.245307
 31
0.0
  0
CIRCLE
  8
0
  6
CONTINUOUS
 62
     0
 10
0.892429
 20
2.151829
 30
0.0
 40
0.033333
  0
CIRCLE
  8
0
  6
GENLT_4
 62
     0
 10
0.892429
 20
2.151829
 30
0.0
 40
0.041667
  0
CIRCLE
  8
0
  6
CONTINUOUS
 62
     0
 10
0.944762
 20
2.235162
 30
0.0
 40
0.025
  0
CIRCLE
  8
0
  6
GENLT_4
 62
     0
 10
0.944762
 20
2.235162
 30
0.0
 40
0.031667
  0
CIRCLE
  8
0
  6
CONTINUOUS
 62
     0
 10
1.173429
 20
2.235162
 30
0.0
 40
0.025
  0
CIRCLE
  8
0
  6
GENLT_4
 62
     0
 10
1.173429
 20
2.235162
 30
0.0
 40
0.031667
  0
CIRCLE
  8
0
  6
CONTINUOUS
 62
     0
 10
1.225762
 20
2.151829
 30
0.0
 40
0.033334
  0
CIRCLE
  8
0
  6
GENLT_4
 62
     0
 10
1.225762
 20
2.151829
 30
0.0
 40
0.041667
  0
CIRCLE
  8
0
  6
CONTINUOUS
 62
     0
 10
1.059095
 20
2.138496
 30
0.0
 40
0.053667
  0
LINE
  8
0
  6
CONTINUOUS
 62
     0
 10
1.056095
 20
2.104496
 30
0.0
 11
1.06191
 21
2.104496
 31
0.0
  0
ARC
  8
0
  6
CONTINUOUS
 62
     0
 10
1.025094
 20
2.104494
 30
0.0
 40
0.031001
 50
0.003356
 51
89.997966
  0
LINE
  8
0
  6
CONTINUOUS
 62
     0
 10
1.025095
 20
2.135496
 30
0.0
 11
1.025095
 21
2.141435
 31
0.0
  0
ARC
  8
0
  6
CONTINUOUS
 62
     0
 10
1.025097
 20
2.172434
 30
0.0
 40
0.030999
 50
269.997612
 51
0.000846
  0
LINE
  8
0
  6
CONTINUOUS
 62
     0
 10
1.056096
 20
2.172435
 30
0.0
 11
1.062095
 21
2.172435
 31
0.0
  0
ARC
  8
0
  6
CONTINUOUS
 62
     0
 10
1.093095
 20
2.172436
 30
0.0
 40
0.031
 50
180.001411
 51
270.000131
  0
ARC
  8
0
  6
CONTINUOUS
 62
     0
 10
1.093095
 20
2.104497
 30
0.0
 40
0.031185
 50
89.998321
 51
180.001021
  0
LINE
  8
0
  6
CONTINUOUS
 62
     0
 10
1.093096
 20
2.141435
 30
0.0
 11
1.093096
 21
2.135681
 31
0.0
  0
CIRCLE
  8
0
  6
CONTINUOUS
 62
     0
 10
1.059095
 20
1.151829
 30
0.0
 40
0.022667
  0
CIRCLE
  8
0
  6
GENLT_4
 62
     0
 10
1.059095
 20
1.151829
 30
0.0
 40
0.027333
  0
CIRCLE
  8
0
  6
CONTINUOUS
 62
     0
 10
1.059095
 20
2.235162
 30
0.0
 40
0.022667
  0
CIRCLE
  8
0
  6
GENLT_4
 62
     0
 10
1.059095
 20
2.235162
 30
0.0
 40
0.027333
  0
CIRCLE
  8
0
  6
CONTINUOUS
 62
     0
 10
2.882718
 20
1.693496
 30
0.0
 40
0.028333
  0
CIRCLE
  8
0
  6
CONTINUOUS
 62
     0
 10
3.570052
 20
1.693496
 30
0.0
 40
0.028333
  0
CIRCLE
  8
1
  6
CONTINUOUS
 62
     0
 10
3.226385
 20
1.693496
 30
0.0
 40
0.053667
  0
LINE
  8
1
  6
CONTINUOUS
 62
     0
 10
3.192384
 20
1.696496
 30
0.0
 11
3.192384
 21
1.690681
 31
0.0
  0
ARC
  8
1
  6
CONTINUOUS
 62
     0
 10
3.192384
 20
1.727496
 30
0.0
 40
0.031
 50
270.00053
 51
359.99947
  0
LINE
  8
1
  6
CONTINUOUS
 62
     0
 10
3.223385
 20
1.727496
 30
0.0
 11
3.229323
 21
1.727496
 31
0.0
  0
ARC
  8
1
  6
CONTINUOUS
 62
     0
 10
3.260325
 20
1.727497
 30
0.0
 40
0.031002
 50
180.002125
 51
269.998535
  0
LINE
  8
1
  6
CONTINUOUS
 62
     0
 10
3.260324
 20
1.696495
 30
0.0
 11
3.260324
 21
1.690496
 31
0.0
  0
ARC
  8
1
  6
CONTINUOUS
 62
     0
 10
3.260325
 20
1.659496
 30
0.0
 40
0.031
 50
90.00053
 51
180.000131
  0
ARC
  8
1
  6
CONTINUOUS
 62
     0
 10
3.192384
 20
1.659494
 30
0.0
 40
0.031187
 50
0.002434
 51
89.999099
  0
LINE
  8
1
  6
CONTINUOUS
 62
     0
 10
3.229324
 20
1.659495
 30
0.0
 11
3.223571
 21
1.659495
 31
0.0
  0
TEXT
  8
1
  6
CONTINUOUS
 62
     0
 10
0.868208
 20
1.065688
 30
0.0
 40
0.041667
  1
A
 11
0.868208
 21
1.065688
 31
0.0
  0
TEXT
  8
1
  6
CONTINUOUS
 62
     0
 10
1.220159
 20
1.055767
 30
0.0
 40
0.041667
  1
A
 11
1.220159
 21
1.055767
 31
0.0
  0
TEXT
  8
1
  6
CONTINUOUS
 62
     0
 10
0.863387
 20
2.055331
 30
0.0
 40
0.041667
  1
A
 11
0.863387
 21
2.055331
 31
0.0
  0
TEXT
  8
1
  6
CONTINUOUS
 62
     0
 10
1.212927
 20
2.060291
 30
0.0
 40
0.041667
  1
A
 11
1.212927
 21
2.060291
 31
0.0
  0
TEXT
  8
1
  6
CONTINUOUS
 62
     0
 10
0.873029
 20
1.261632
 30
0.0
 40
0.041667
  1
B
 11
0.873029
 21
1.261632
 31
0.0
  0
TEXT
  8
1
  6
CONTINUOUS
 62
     0
 10
1.198463
 20
1.271554
 30
0.0
 40
0.041667
  1
B
 11
1.198463
 21
1.271554
 31
0.0
  0
TEXT
  8
1
  6
CONTINUOUS
 62
     0
 10
0.967043
 20
2.273597
 30
0.0
 40
0.041667
  1
B
 11
0.967043
 21
2.273597
 31
0.0
  0
TEXT
  8
1
  6
CONTINUOUS
 62
     0
 10
1.114091
 20
2.263676
 30
0.0
 40
0.041667
  1
B
 11
1.114091
 21
2.263676
 31
0.0
  0
TEXT
  8
1
  6
CONTINUOUS
 62
     0
 10
1.041773
 20
2.271117
 30
0.0
 40
0.041667
  1
C
 11
1.041773
 21
2.271117
 31
0.0
  0
TEXT
  8
1
  6
CONTINUOUS
 62
     0
 10
1.044183
 20
1.070649
 30
0.0
 40
0.041667
  1
 
 11
1.044183
 21
1.070649
 31
0.0
  0
TEXT
  8
1
  6
CONTINUOUS
 62
     0
 10
1.039362
 20
1.070649
 30
0.0
 40
0.041667
  1
C
 11
1.039362
 21
1.070649
 31
0.0
  0
TEXT
  8
1
  6
CONTINUOUS
 62
     0
 10
3.247427
 20
1.197634
 30
0.0
 40
0.041667
  1
D
 11
3.247427
 21
1.197634
 31
0.0
  0
TEXT
  8
1
  6
CONTINUOUS
 62
     0
 10
3.247427
 20
2.285028
 30
0.0
 40
0.041667
  1
D
 11
3.247427
 21
2.285028
 31
0.0
  0
TEXT
  8
1
  6
CONTINUOUS
 62
     0
 10
3.510593
 20
1.734884
 30
0.0
 40
0.041667
  1
E
 11
3.510593
 21
1.734884
 31
0.0
  0
TEXT
  8
1
  6
CONTINUOUS
 62
     0
 10
2.900715
 20
1.739182
 30
0.0
 40
0.041667
  1
E
 11
2.900715
 21
1.739182
 31
0.0
  0
TEXT
  8
1
  6
CONTINUOUS
 62
     0
 10
0.424184
 20
0.865432
 30
0.0
 40
0.041667
  1
A- 1/4-20 (4 PLCS) FOR MTG A4000 SERIES
 11
0.424184
 21
0.865432
 31
0.0
  0
TEXT
  8
1
  6
CONTINUOUS
 62
     0
 10
0.424184
 20
0.740432
 30
0.0
 40
0.041667
  1
B- 10-32 (4 PLCS) FOR MTG A2500 SERIES
 11
0.424184
 21
0.740432
 31
0.0
  0
TEXT
  8
1
  6
CONTINUOUS
 62
     0
 10
0.42378
 20
0.627361
 30
0.0
 40
0.041667
  1
C- 10-32 (2 PLCS) FOR MTG A4000 ADAPTERS
 11
0.42378
 21
0.627361
 31
0.0
  0
TEXT
  8
1
  6
CONTINUOUS
 62
     0
 10
0.42378
 20
0.564861
 30
0.0
 40
0.041667
  1
   AND A4007TS TURNTABLE
 11
0.42378
 21
0.564861
 31
0.0
  0
TEXT
  8
1
  6
CONTINUOUS
 62
     0
 10
2.678084
 20
0.894729
 30
0.0
 40
0.041667
  1
D- CLEARANCE FOR #10 CPHD FOR MTG ON ALL
 11
2.678084
 21
0.894729
 31
0.0
  0
TEXT
  8
1
  6
CONTINUOUS
 62
     0
 10
2.678084
 20
0.832229
 30
0.0
 40
0.041667
  1
   A4000 SLIDERS, A4800 ROTARY TABLE AND
 11
2.678084
 21
0.832229
 31
0.0
  0
TEXT
  8
1
  6
CONTINUOUS
 62
     0
 10
2.678084
 20
0.769729
 30
0.0
 40
0.041667
  1
   A4007TS TURNTABLE TOPS
 11
2.678084
 21
0.769729
 31
0.0
  0
TEXT
  8
1
  6
CONTINUOUS
 62
     0
 10
2.676362
 20
0.653083
 30
0.0
 40
0.041667
  1
E- CLEARANCE FOR #8 CPHD FOR MTG ON ALL 
 11
2.676362
 21
0.653083
 31
0.0
  0
TEXT
  8
1
  6
CONTINUOUS
 62
     0
 10
2.676362
 20
0.590583
 30
0.0
 40
0.041667
  1
   A2500 SLIDERS AND A2505TS TURNTABLE
 11
2.676362
 21
0.590583
 31
0.0
  0
TEXT
  8
0
  6
CONTINUOUS
 62
     0
 10
2.676362
 20
0.456632
 30
0.0
 40
0.041667
  1
NOTE: TOP PLATE MUST BE REMOVED FOR ACCESS
 11
2.676362
 21
0.456632
 31
0.0
  0
TEXT
  8
0
  6
CONTINUOUS
 62
     0
 10
2.657583
 20
0.394132
 30
0.0
 40
0.041667
  1
       TO MTG HOLES
 11
2.657583
 21
0.394132
 31
0.0
  0
LINE
  8
1
  6
CONTINUOUS
 62
     0
 10
2.642882
 20
0.361849
 30
0.0
 11
4.112616
 21
0.361849
 31
0.0
  0
LINE
  8
1
  6
CONTINUOUS
 62
     0
 10
4.112616
 20
0.361849
 30
0.0
 11
4.112616
 21
0.534182
 31
0.0
  0
LINE
  8
1
  6
CONTINUOUS
 62
     0
 10
4.112616
 20
0.534182
 30
0.0
 11
2.642882
 21
0.534182
 31
0.0
  0
LINE
  8
1
  6
CONTINUOUS
 62
     0
 10
2.642882
 20
0.534182
 30
0.0
 11
2.642882
 21
0.361849
 31
0.0
  0
TEXT
  8
1
  6
CONTINUOUS
 62
     0
 10
1.315517
 20
2.283357
 30
0.0
 40
0.041667
  1
TOP
 11
1.315517
 21
2.283357
 31
0.0
  0
TEXT
  8
1
  6
CONTINUOUS
 62
     0
 10
2.052477
 20
2.27474
 30
0.0
 40
0.041667
  1
SIDE
 11
2.052477
 21
2.27474
 31
0.0
  0
TEXT
  8
1
  6
CONTINUOUS
 62
     0
 10
2.940179
 20
2.304898
 30
0.0
 40
0.041667
  1
BOTTOM
 11
2.940179
 21
2.304898
 31
0.0
  0
TEXT
  8
1
  6
CONTINUOUS
 62
     0
 10
2.219323
 20
1.508037
 30
0.0
 40
0.041667
  1
THUMBWHEEL
 50
90.0
 11
2.219323
 21
1.508037
 31
0.0
  0
TEXT
  8
1
  6
CONTINUOUS
 62
     0
 10
1.227539
 20
3.325987
 30
0.0
 40
0.083333
  1
A3901W1 AND A3903W1 ELEVATING TABLES
 11
1.227539
 21
3.325987
 31
0.0
  0
TEXT
  8
1
  6
CONTINUOUS
 62
     0
 10
1.252717
 20
2.975077
 30
0.0
 40
0.041667
  1
A3901W1     2.25"                 1.00"
 11
1.252717
 21
2.975077
 31
0.0
  0
TEXT
  8
1
  6
CONTINUOUS
 62
     0
 10
1.252717
 20
2.850077
 30
0.0
 40
0.041667
  1
A3903W1    4.50"                3.25"
 11
1.252717
 21
2.850077
 31
0.0
  0
TEXT
  8
1
  6
CONTINUOUS
 62
     0
 10
1.272104
 20
3.100077
 30
0.0
 40
0.041667
  1
MODEL   RETRACTED HEIGHT   VERTICAL TRAVEL
 11
1.272104
 21
3.100077
 31
0.0
  0
LINE
  8
1
  6
CONTINUOUS
 62
     0
 10
2.676859
 20
2.812355
 30
0.0
 11
2.676859
 21
3.171168
 31
0.0
  0
LINE
  8
1
  6
CONTINUOUS
 62
     0
 10
1.210707
 20
3.171168
 30
0.0
 11
1.210707
 21
2.812355
 31
0.0
  0
LINE
  8
1
  6
CONTINUOUS
 62
     0
 10
1.505411
 20
3.171168
 30
0.0
 11
1.505411
 21
2.812355
 31
0.0
  0
LINE
  8
1
  6
CONTINUOUS
 62
     0
 10
2.102187
 20
3.171168
 30
0.0
 11
2.102187
 21
2.812355
 31
0.0
  0
TEXT
  8
1
  6
CONTINUOUS
 62
     0
 10
2.934751
 20
2.971348
 30
0.0
 40
0.041667
  1
BLACK ANODIZED
 11
2.934751
 21
2.971348
 31
0.0
  0
TEXT
  8
1
  6
CONTINUOUS
 62
     0
 10
2.931735
 20
2.85188
 30
0.0
 40
0.041667
  1
DUAL THUMB LOCKS
 11
2.931735
 21
2.85188
 31
0.0
  0
LINE
  8
1
  6
CONTINUOUS
 62
     0
 10
1.210707
 20
3.171168
 30
0.0
 11
3.494195
 21
3.171168
 31
0.0
  0
LINE
  8
1
  6
CONTINUOUS
 62
     0
 10
1.210707
 20
2.812355
 30
0.0
 11
3.494195
 21
2.812355
 31
0.0
  0
LINE
  8
1
  6
CONTINUOUS
 62
     0
 10
1.210707
 20
3.067568
 30
0.0
 11
3.494195
 21
3.067568
 31
0.0
  0
LINE
  8
1
  6
CONTINUOUS
 62
     0
 10
1.210707
 20
2.936171
 30
0.0
 11
3.494195
 21
2.936171
 31
0.0
  0
LINE
  8
1
  6
CONTINUOUS
 62
     0
 10
3.494195
 20
3.171168
 30
0.0
 11
3.494195
 21
2.812355
 31
0.0
  0
TEXT
  8
1
  6
CONTINUOUS
 62
     0
 10
2.945306
 20
3.097756
 30
0.0
 40
0.041667
  1
OPTIONS
 11
2.945306
 21
3.097756
 31
0.0
  0
TEXT
  8
1
  6
CONTINUOUS
 62
     0
 10
2.731179
 20
2.971898
 30
0.0
 40
0.041667
  1
- BK
 11
2.731179
 21
2.971898
 31
0.0
  0
TEXT
  8
1
  6
CONTINUOUS
 62
     0
 10
2.731179
 20
2.851177
 30
0.0
 40
0.041667
  1
- DL
 11
2.731179
 21
2.851177
 31
0.0
  0
LINE
  8
1
  6
CONTINUOUS
 62
     0
 10
2.884989
 20
3.062887
 30
0.0
 11
2.884989
 21
2.812355
 31
0.0
  0
LINE
  8
20
  6
CONTINUOUS
 62
     0
 10
2.581425
 20
2.376829
 30
0.0
 11
2.581425
 21
1.785983
 31
0.0
  0
LINE
  8
20
  6
CONTINUOUS
 62
     0
 10
2.581425
 20
1.601008
 30
0.0
 11
2.581425
 21
1.010162
 31
0.0
  0
LINE
  8
20
  6
CONTINUOUS
 62
     0
 10
2.516044
 20
2.376829
 30
0.0
 11
2.621425
 21
2.376829
 31
0.0
  0
LINE
  8
20
  6
CONTINUOUS
 62
     0
 10
2.516044
 20
1.010162
 30
0.0
 11
2.621425
 21
1.010162
 31
0.0
  0
LINE
  8
20
  6
CONTINUOUS
 62
     0
 10
2.581425
 20
2.376829
 30
0.0
 11
2.571072
 21
2.338192
 31
0.0
  0
LINE
  8
20
  6
CONTINUOUS
 62
     0
 10
2.591778
 20
2.338192
 30
0.0
 11
2.581425
 21
2.376829
 31
0.0
  0
LINE
  8
20
  6
CONTINUOUS
 62
     0
 10
2.571072
 20
2.338192
 30
0.0
 11
2.591778
 21
2.338192
 31
0.0
  0
LINE
  8
20
  6
CONTINUOUS
 62
     0
 10
2.581425
 20
1.010162
 30
0.0
 11
2.591778
 21
1.048799
 31
0.0
  0
LINE
  8
20
  6
CONTINUOUS
 62
     0
 10
2.571072
 20
1.048799
 30
0.0
 11
2.581425
 21
1.010162
 31
0.0
  0
LINE
  8
20
  6
CONTINUOUS
 62
     0
 10
2.591778
 20
1.048799
 30
0.0
 11
2.571072
 21
1.048799
 31
0.0
  0
TEXT
  8
20
  6
CONTINUOUS
 62
     0
 10
2.602258
 20
1.641008
 30
0.0
 40
0.041667
  1
4.10"
 50
90.0
 11
2.602258
 21
1.641008
 31
0.0
  0
LINE
  8
20
  6
CONTINUOUS
 62
     0
 10
2.882718
 20
1.539593
 30
0.0
 11
3.106818
 21
1.539593
 31
0.0
  0
LINE
  8
20
  6
CONTINUOUS
 62
     0
 10
3.345952
 20
1.539593
 30
0.0
 11
3.570052
 21
1.539593
 31
0.0
  0
LINE
  8
20
  6
CONTINUOUS
 62
     0
 10
2.882718
 20
1.671829
 30
0.0
 11
2.882718
 21
1.499593
 31
0.0
  0
LINE
  8
20
  6
CONTINUOUS
 62
     0
 10
3.570052
 20
1.671829
 30
0.0
 11
3.570052
 21
1.499593
 31
0.0
  0
LINE
  8
20
  6
CONTINUOUS
 62
     0
 10
2.882718
 20
1.539593
 30
0.0
 11
2.921355
 21
1.52924
 31
0.0
  0
LINE
  8
20
  6
CONTINUOUS
 62
     0
 10
2.921355
 20
1.549946
 30
0.0
 11
2.882718
 21
1.539593
 31
0.0
  0
LINE
  8
20
  6
CONTINUOUS
 62
     0
 10
2.921355
 20
1.52924
 30
0.0
 11
2.921355
 21
1.549946
 31
0.0
  0
LINE
  8
20
  6
CONTINUOUS
 62
     0
 10
3.570052
 20
1.539593
 30
0.0
 11
3.531415
 21
1.549946
 31
0.0
  0
LINE
  8
20
  6
CONTINUOUS
 62
     0
 10
3.531415
 20
1.52924
 30
0.0
 11
3.570052
 21
1.539593
 31
0.0
  0
LINE
  8
20
  6
CONTINUOUS
 62
     0
 10
3.531415
 20
1.549946
 30
0.0
 11
3.531415
 21
1.52924
 31
0.0
  0
TEXT
  8
20
  6
CONTINUOUS
 62
     0
 10
3.146818
 20
1.51876
 30
0.0
 40
0.041667
  1
2.062"
 11
3.146818
 21
1.51876
 31
0.0
  0
LINE
  8
20
  6
CONTINUOUS
 62
     0
 10
3.378943
 20
2.235162
 30
0.0
 11
3.378943
 21
1.813156
 31
0.0
  0
LINE
  8
20
  6
CONTINUOUS
 62
     0
 10
3.378943
 20
1.573835
 30
0.0
 11
3.378943
 21
1.151828
 31
0.0
  0
LINE
  8
20
  6
CONTINUOUS
 62
     0
 10
3.248385
 20
2.235162
 30
0.0
 11
3.418943
 21
2.235162
 31
0.0
  0
LINE
  8
20
  6
CONTINUOUS
 62
     0
 10
3.248385
 20
1.151828
 30
0.0
 11
3.418943
 21
1.151828
 31
0.0
  0
LINE
  8
20
  6
CONTINUOUS
 62
     0
 10
3.378943
 20
2.235162
 30
0.0
 11
3.36859
 21
2.196525
 31
0.0
  0
LINE
  8
20
  6
CONTINUOUS
 62
     0
 10
3.389296
 20
2.196525
 30
0.0
 11
3.378943
 21
2.235162
 31
0.0
  0
LINE
  8
20
  6
CONTINUOUS
 62
     0
 10
3.36859
 20
2.196525
 30
0.0
 11
3.389296
 21
2.196525
 31
0.0
  0
LINE
  8
20
  6
CONTINUOUS
 62
     0
 10
3.378943
 20
1.151828
 30
0.0
 11
3.389296
 21
1.190465
 31
0.0
  0
LINE
  8
20
  6
CONTINUOUS
 62
     0
 10
3.36859
 20
1.190465
 30
0.0
 11
3.378943
 21
1.151828
 31
0.0
  0
LINE
  8
20
  6
CONTINUOUS
 62
     0
 10
3.389296
 20
1.190465
 30
0.0
 11
3.36859
 21
1.190465
 31
0.0
  0
TEXT
  8
20
  6
CONTINUOUS
 62
     0
 10
3.399776
 20
1.613835
 30
0.0
 40
0.041667
  1
3.250"
 50
90.0
 11
3.399776
 21
1.613835
 31
0.0
  0
LINE
  8
20
  6
CONTINUOUS
 62
     0
 10
0.530484
 20
2.235162
 30
0.0
 11
0.530484
 21
1.813156
 31
0.0
  0
LINE
  8
20
  6
CONTINUOUS
 62
     0
 10
0.530484
 20
1.573835
 30
0.0
 11
0.530484
 21
1.151829
 31
0.0
  0
LINE
  8
20
  6
CONTINUOUS
 62
     0
 10
1.037429
 20
2.235162
 30
0.0
 11
0.490484
 21
2.235162
 31
0.0
  0
LINE
  8
20
  6
CONTINUOUS
 62
     0
 10
1.037429
 20
1.151829
 30
0.0
 11
0.490484
 21
1.151829
 31
0.0
  0
LINE
  8
20
  6
CONTINUOUS
 62
     0
 10
0.530484
 20
2.235162
 30
0.0
 11
0.520131
 21
2.196525
 31
0.0
  0
LINE
  8
20
  6
CONTINUOUS
 62
     0
 10
0.540836
 20
2.196525
 30
0.0
 11
0.530484
 21
2.235162
 31
0.0
  0
LINE
  8
20
  6
CONTINUOUS
 62
     0
 10
0.520131
 20
2.196525
 30
0.0
 11
0.540836
 21
2.196525
 31
0.0
  0
LINE
  8
20
  6
CONTINUOUS
 62
     0
 10
0.530484
 20
1.151829
 30
0.0
 11
0.540836
 21
1.190466
 31
0.0
  0
LINE
  8
20
  6
CONTINUOUS
 62
     0
 10
0.520131
 20
1.190466
 30
0.0
 11
0.530484
 21
1.151829
 31
0.0
  0
LINE
  8
20
  6
CONTINUOUS
 62
     0
 10
0.540836
 20
1.190466
 30
0.0
 11
0.520131
 21
1.190466
 31
0.0
  0
TEXT
  8
20
  6
CONTINUOUS
 62
     0
 10
0.551317
 20
1.613835
 30
0.0
 40
0.041667
  1
3.250"
 50
90.0
 11
0.551317
 21
1.613835
 31
0.0
  0
LINE
  8
20
  6
CONTINUOUS
 62
     0
 10
0.528
 20
2.359154
 30
0.0
 11
0.528
 21
2.235162
 31
0.0
  0
LINE
  8
20
  6
CONTINUOUS
 62
     0
 10
0.620762
 20
2.376829
 30
0.0
 11
0.488
 21
2.376829
 31
0.0
  0
LINE
  8
20
  6
CONTINUOUS
 62
     0
 10
1.037429
 20
2.235162
 30
0.0
 11
0.488
 21
2.235162
 31
0.0
  0
LINE
  8
20
  6
CONTINUOUS
 62
     0
 10
0.528
 20
2.376829
 30
0.0
 11
0.517647
 21
2.338192
 31
0.0
  0
LINE
  8
20
  6
CONTINUOUS
 62
     0
 10
0.538353
 20
2.338192
 30
0.0
 11
0.528
 21
2.376829
 31
0.0
  0
LINE
  8
20
  6
CONTINUOUS
 62
     0
 10
0.517647
 20
2.338192
 30
0.0
 11
0.538353
 21
2.338192
 31
0.0
  0
LINE
  8
20
  6
CONTINUOUS
 62
     0
 10
0.528
 20
2.235162
 30
0.0
 11
0.538353
 21
2.273799
 31
0.0
  0
LINE
  8
20
  6
CONTINUOUS
 62
     0
 10
0.517647
 20
2.273799
 30
0.0
 11
0.528
 21
2.235162
 31
0.0
  0
LINE
  8
20
  6
CONTINUOUS
 62
     0
 10
0.538353
 20
2.273799
 30
0.0
 11
0.517647
 21
2.273799
 31
0.0
  0
TEXT
  8
20
  6
CONTINUOUS
 62
     0
 10
0.548833
 20
2.399154
 30
0.0
 40
0.041667
  1
.425"
 50
90.0
 11
0.548833
 21
2.399154
 31
0.0
  0
LINE
  8
20
  6
CONTINUOUS
 62
     0
 10
0.642429
 20
2.63901
 30
0.0
 11
0.938204
 21
2.63901
 31
0.0
  0
LINE
  8
20
  6
CONTINUOUS
 62
     0
 10
1.179987
 20
2.63901
 30
0.0
 11
1.475762
 21
2.63901
 31
0.0
  0
LINE
  8
20
  6
CONTINUOUS
 62
     0
 10
0.642429
 20
2.398496
 30
0.0
 11
0.642429
 21
2.67901
 31
0.0
  0
LINE
  8
20
  6
CONTINUOUS
 62
     0
 10
1.475762
 20
2.398496
 30
0.0
 11
1.475762
 21
2.67901
 31
0.0
  0
LINE
  8
20
  6
CONTINUOUS
 62
     0
 10
0.642429
 20
2.63901
 30
0.0
 11
0.681066
 21
2.628658
 31
0.0
  0
LINE
  8
20
  6
CONTINUOUS
 62
     0
 10
0.681066
 20
2.649363
 30
0.0
 11
0.642429
 21
2.63901
 31
0.0
  0
LINE
  8
20
  6
CONTINUOUS
 62
     0
 10
0.681066
 20
2.628658
 30
0.0
 11
0.681066
 21
2.649363
 31
0.0
  0
LINE
  8
20
  6
CONTINUOUS
 62
     0
 10
1.475762
 20
2.63901
 30
0.0
 11
1.437125
 21
2.649363
 31
0.0
  0
LINE
  8
20
  6
CONTINUOUS
 62
     0
 10
1.437125
 20
2.628658
 30
0.0
 11
1.475762
 21
2.63901
 31
0.0
  0
LINE
  8
20
  6
CONTINUOUS
 62
     0
 10
1.437125
 20
2.649363
 30
0.0
 11
1.437125
 21
2.628658
 31
0.0
  0
TEXT
  8
20
  6
CONTINUOUS
 62
     0
 10
0.978204
 20
2.618177
 30
0.0
 40
0.041667
  1
2.500"
 11
0.978204
 21
2.618177
 31
0.0
  0
LINE
  8
20
  6
CONTINUOUS
 62
     0
 10
0.892429
 20
2.540346
 30
0.0
 11
0.948337
 21
2.540346
 31
0.0
  0
LINE
  8
20
  6
CONTINUOUS
 62
     0
 10
1.169854
 20
2.540346
 30
0.0
 11
1.225762
 21
2.540346
 31
0.0
  0
LINE
  8
20
  6
CONTINUOUS
 62
     0
 10
0.892429
 20
2.173496
 30
0.0
 11
0.892429
 21
2.580346
 31
0.0
  0
LINE
  8
20
  6
CONTINUOUS
 62
     0
 10
1.225762
 20
2.173496
 30
0.0
 11
1.225762
 21
2.580346
 31
0.0
  0
LINE
  8
20
  6
CONTINUOUS
 62
     0
 10
0.892429
 20
2.540346
 30
0.0
 11
0.931066
 21
2.529993
 31
0.0
  0
LINE
  8
20
  6
CONTINUOUS
 62
     0
 10
0.931066
 20
2.550699
 30
0.0
 11
0.892429
 21
2.540346
 31
0.0
  0
LINE
  8
20
  6
CONTINUOUS
 62
     0
 10
0.931066
 20
2.529993
 30
0.0
 11
0.931066
 21
2.550699
 31
0.0
  0
LINE
  8
20
  6
CONTINUOUS
 62
     0
 10
1.225762
 20
2.540346
 30
0.0
 11
1.187125
 21
2.550699
 31
0.0
  0
LINE
  8
20
  6
CONTINUOUS
 62
     0
 10
1.187125
 20
2.529993
 30
0.0
 11
1.225762
 21
2.540346
 31
0.0
  0
LINE
  8
20
  6
CONTINUOUS
 62
     0
 10
1.187125
 20
2.550699
 30
0.0
 11
1.187125
 21
2.529993
 31
0.0
  0
TEXT
  8
20
  6
CONTINUOUS
 62
     0
 10
0.988337
 20
2.519512
 30
0.0
 40
0.041667
  1
1.000"
 11
0.988337
 21
2.519512
 31
0.0
  0
LINE
  8
20
  6
CONTINUOUS
 62
     0
 10
0.944762
 20
2.446478
 30
0.0
 11
0.864762
 21
2.446478
 31
0.0
  0
LINE
  8
20
  6
CONTINUOUS
 62
     0
 10
1.173429
 20
2.446478
 30
0.0
 11
1.253429
 21
2.446478
 31
0.0
  0
LINE
  8
20
  6
CONTINUOUS
 62
     0
 10
0.944762
 20
2.256829
 30
0.0
 11
0.944762
 21
2.486478
 31
0.0
  0
LINE
  8
20
  6
CONTINUOUS
 62
     0
 10
1.173429
 20
2.256829
 30
0.0
 11
1.173429
 21
2.486478
 31
0.0
  0
LINE
  8
20
  6
CONTINUOUS
 62
     0
 10
0.944762
 20
2.446478
 30
0.0
 11
0.906125
 21
2.456831
 31
0.0
  0
LINE
  8
20
  6
CONTINUOUS
 62
     0
 10
0.906125
 20
2.436125
 30
0.0
 11
0.944762
 21
2.446478
 31
0.0
  0
LINE
  8
20
  6
CONTINUOUS
 62
     0
 10
0.906125
 20
2.456831
 30
0.0
 11
0.906125
 21
2.436125
 31
0.0
  0
LINE
  8
20
  6
CONTINUOUS
 62
     0
 10
1.173429
 20
2.446478
 30
0.0
 11
1.212066
 21
2.436125
 31
0.0
  0
LINE
  8
20
  6
CONTINUOUS
 62
     0
 10
1.212066
 20
2.456831
 30
0.0
 11
1.173429
 21
2.446478
 31
0.0
  0
LINE
  8
20
  6
CONTINUOUS
 62
     0
 10
1.212066
 20
2.436125
 30
0.0
 11
1.212066
 21
2.456831
 31
0.0
  0
TEXT
  8
20
  6
CONTINUOUS
 62
     0
 10
0.996204
 20
2.425645
 30
0.0
 40
0.041667
  1
.686"
 11
0.996204
 21
2.425645
 31
0.0
  0
LINE
  8
20
  6
CONTINUOUS
 62
     0
 10
1.560282
 20
2.235162
 30
0.0
 11
1.560282
 21
1.859052
 31
0.0
  0
LINE
  8
20
  6
CONTINUOUS
 62
     0
 10
1.560282
 20
1.611273
 30
0.0
 11
1.560282
 21
1.235162
 31
0.0
  0
LINE
  8
20
  6
CONTINUOUS
 62
     0
 10
1.195096
 20
2.235162
 30
0.0
 11
1.600282
 21
2.235162
 31
0.0
  0
LINE
  8
20
  6
CONTINUOUS
 62
     0
 10
1.195096
 20
1.235162
 30
0.0
 11
1.600282
 21
1.235162
 31
0.0
  0
LINE
  8
20
  6
CONTINUOUS
 62
     0
 10
1.560282
 20
2.235162
 30
0.0
 11
1.549929
 21
2.196525
 31
0.0
  0
LINE
  8
20
  6
CONTINUOUS
 62
     0
 10
1.570635
 20
2.196525
 30
0.0
 11
1.560282
 21
2.235162
 31
0.0
  0
LINE
  8
20
  6
CONTINUOUS
 62
     0
 10
1.549929
 20
2.196525
 30
0.0
 11
1.570635
 21
2.196525
 31
0.0
  0
LINE
  8
20
  6
CONTINUOUS
 62
     0
 10
1.560282
 20
1.235162
 30
0.0
 11
1.570635
 21
1.273799
 31
0.0
  0
LINE
  8
20
  6
CONTINUOUS
 62
     0
 10
1.549929
 20
1.273799
 30
0.0
 11
1.560282
 21
1.235162
 31
0.0
  0
LINE
  8
20
  6
CONTINUOUS
 62
     0
 10
1.570635
 20
1.273799
 30
0.0
 11
1.549929
 21
1.273799
 31
0.0
  0
TEXT
  8
20
  6
CONTINUOUS
 62
     0
 10
1.581115
 20
1.651273
 30
0.0
 40
0.041667
  1
3.000"
 50
90.0
 11
1.581115
 21
1.651273
 31
0.0
  0
LINE
  8
20
  6
CONTINUOUS
 62
     0
 10
1.648173
 20
2.151829
 30
0.0
 11
1.648173
 21
1.775719
 31
0.0
  0
LINE
  8
20
  6
CONTINUOUS
 62
     0
 10
1.648173
 20
1.527939
 30
0.0
 11
1.648173
 21
1.151829
 31
0.0
  0
LINE
  8
20
  6
CONTINUOUS
 62
     0
 10
1.247429
 20
2.151829
 30
0.0
 11
1.688173
 21
2.151829
 31
0.0
  0
LINE
  8
20
  6
CONTINUOUS
 62
     0
 10
1.247429
 20
1.151829
 30
0.0
 11
1.688173
 21
1.151829
 31
0.0
  0
LINE
  8
20
  6
CONTINUOUS
 62
     0
 10
1.648173
 20
2.151829
 30
0.0
 11
1.63782
 21
2.113192
 31
0.0
  0
LINE
  8
20
  6
CONTINUOUS
 62
     0
 10
1.658526
 20
2.113192
 30
0.0
 11
1.648173
 21
2.151829
 31
0.0
  0
LINE
  8
20
  6
CONTINUOUS
 62
     0
 10
1.63782
 20
2.113192
 30
0.0
 11
1.658526
 21
2.113192
 31
0.0
  0
LINE
  8
20
  6
CONTINUOUS
 62
     0
 10
1.648173
 20
1.151829
 30
0.0
 11
1.658526
 21
1.190466
 31
0.0
  0
LINE
  8
20
  6
CONTINUOUS
 62
     0
 10
1.63782
 20
1.190466
 30
0.0
 11
1.648173
 21
1.151829
 31
0.0
  0
LINE
  8
20
  6
CONTINUOUS
 62
     0
 10
1.658526
 20
1.190466
 30
0.0
 11
1.63782
 21
1.190466
 31
0.0
  0
TEXT
  8
20
  6
CONTINUOUS
 62
     0
 10
1.669006
 20
1.567939
 30
0.0
 40
0.041667
  1
3.000"
 50
90.0
 11
1.669006
 21
1.567939
 31
0.0
  0
LINE
  8
20
  6
CONTINUOUS
 62
     0
 10
2.494377
 20
2.468614
 30
0.0
 11
2.425458
 21
2.468614
 31
0.0
  0
LINE
  8
20
  6
CONTINUOUS
 62
     0
 10
1.818296
 20
2.468614
 30
0.0
 11
1.749377
 21
2.468614
 31
0.0
  0
LINE
  8
20
  6
CONTINUOUS
 62
     0
 10
2.494377
 20
2.398495
 30
0.0
 11
2.494377
 21
2.508614
 31
0.0
  0
LINE
  8
20
  6
CONTINUOUS
 62
     0
 10
1.749377
 20
2.398495
 30
0.0
 11
1.749377
 21
2.508614
 31
0.0
  0
LINE
  8
20
  6
CONTINUOUS
 62
     0
 10
2.494377
 20
2.468614
 30
0.0
 11
2.45574
 21
2.478967
 31
0.0
  0
LINE
  8
20
  6
CONTINUOUS
 62
     0
 10
2.45574
 20
2.458261
 30
0.0
 11
2.494377
 21
2.468614
 31
0.0
  0
LINE
  8
20
  6
CONTINUOUS
 62
     0
 10
2.45574
 20
2.478967
 30
0.0
 11
2.45574
 21
2.458261
 31
0.0
  0
LINE
  8
20
  6
CONTINUOUS
 62
     0
 10
1.749377
 20
2.468614
 30
0.0
 11
1.788014
 21
2.458261
 31
0.0
  0
LINE
  8
20
  6
CONTINUOUS
 62
     0
 10
1.788014
 20
2.478967
 30
0.0
 11
1.749377
 21
2.468614
 31
0.0
  0
LINE
  8
20
  6
CONTINUOUS
 62
     0
 10
1.788014
 20
2.458261
 30
0.0
 11
1.788014
 21
2.478967
 31
0.0
  0
TEXT
  8
20
  6
CONTINUOUS
 62
     0
 10
1.858296
 20
2.447781
 30
0.0
 40
0.041667
  1
RETRACTED HEIGHT
 50
360.0
 11
1.858296
 21
2.447781
 31
0.0
  0
ENDSEC
  0
EOF
